图片谱

【Girls Like You吉他谱】《Girls Like You》TXT吉他谱 The Spin Wires制谱 .

字号+ 爱尚吉他 网络整理 2019-03-10 08:41 我要评论( )

Girls Like You                                


Guitar is Tuned Half a Step Done




      Q    Q    E  E  E  E     Q    E  Q    E  Q                                     4x

D#||------------------------|-------------------------||-------|-------|

A#||------------------------|-------------------------||-------|-------|

F#||------------------------|-----------------------*-||-------|-------|

C#||--7----7-------7--7-----|--7-------7----7--5----*-||-------|-------|

G#||--7----7----0--7--7--0--|--7----0--7----5--3------||-------|-------|

D#||--5----5----0--5--5--0--|--5----0--5--------------||-------|-------|

 

 

  Q    Q    E  E  E  E     Q    E  Q    E  Q                     

------------------------|-----------------------|-------|-------|

------------------------|-----------------------|-------|-------|

------------------------|-----------------------|-------|-------|

--7----7-------7--7-----|--7-------7----7--5----|-------|-------|

--7----7----0--7--7--0--|--7----0--7----5--3----|-------|-------|

--5----5----0--5--5--0--|--5----0--5------------|-------|-------|

 

 

  Q    Q    E  E  E  E     Q    E  Q    E  Q                     

------------------------|-----------------------|-------|-------|

------------------------|-----------------------|-------|-------|

------------------------|-----------------------|-------|-------|

--7----7-------7--7-----|--7-------7----7--5----|-------|-------|

--7----7----0--7--7--0--|--7----0--7----5--3----|-------|-------|

--5----5----0--5--5--0--|--5----0--5------------|-------|-------|

 

 

  Q    Q    E  E  E  E     Q    E  Q    E  Q                             

------------------------|-----------------------|-------|-------|-------|

------------------------|-----------------------|-------|-------|-------|

------------------------|-----------------------|-------|-------|-------|

--7----7-------7--7-----|--7-------7----7--5----|-------|-------|-------|

--7----7----0--7--7--0--|--7----0--7----5--3----|-------|-------|-------|

--5----5----0--5--5--0--|--5----0--5------------|-------|-------|-------|

 

 

          E  E  E  E  E  E  E  E     E  E  E  E  E  E  E  E   

-------|--------------------------|--------------------------|

-------|--------------------------|--------------------------|

-------|--------------------------|--------------------------|

-------|--7--7--7--7--7--7--7--7--|--7--7--7--7--7--7--7--7--|

-------|--5--5--5--5--5--5--5--5--|--5--5--5--5--5--5--5--5--|

-------|--------------------------|--------------------------|

 

 

  E  E  E  E  E  E  E  E      E   E   E   E   E   E   E   E   

--------------------------|----------------------------------|

--------------------------|----------------------------------|

--------------------------|----------------------------------|

--9--9--9--9--9--9--9--9--|--12--12--12--12--12--12--12--12--|

--7--7--7--7--7--7--7--7--|--10--10--10--10--10--10--10--10--|

--------------------------|----------------------------------|

 

 

  E  E  E  E  E  E  E  E     E  E  E  Q    E  E  E   

--5--5-----5-----5-----5--|-------------------------|

--5--5-----5-----5-----5--|-----------5-------------|

--6--6-----6-----6-----6--|-----5----------5-----5--|

--7--7-----7-----7-----7--|--------5----------5-----|

--7--7-----7-----7-----7--|--3----------------------|

--5--5-----5-----5-----5--|-------------------------|

 

 

  E  E  E  E  E  E  E  E     E  E  E  Q    E  E  E   

--3--3-----3-----3-----3--|-------------------------|

--3--3-----3-----3-----3--|-----------7-------------|

--4--4-----4-----4-----4--|-----7----------7-----7--|

--5--5-----5-----5-----5--|--------7----------7-----|

--5--5-----5-----5-----5--|--5----------------------|

--3--3-----3-----3-----3--|-------------------------|

 

 

  E  E  E  E  E  E  E  E     E  E  E  Q    E  E  E   

--5--5-----5-----5-----5--|-------------------------|

--5--5-----5-----5-----5--|-----------5-------------|

--6--6-----6-----6-----6--|-----5----------5-----5--|

--7--7-----7-----7-----7--|--------5----------5-----|

--7--7-----7-----7-----7--|--3----------------------|

--5--5-----5-----5-----5--|-------------------------|

 

 

  E  E  E  E  E  E  E  E     E  E  E  Q    E  E  E   

--3--3-----3-----3-----3--|-------------------------|

--3--3-----3-----3-----3--|-----------7-------------|

--4--4-----4-----4-----4--|-----7----------7-----7--|

--5--5-----5-----5-----5--|--------7----------7-----|

--5--5-----5-----5-----5--|--5----------------------|

--3--3-----3-----3-----3--|-------------------------|

 

 

  E  E  E  Q    E  E  E                 Q    Q    E  E  E  E   

-------------------------|-----|-----|------------------------|

-----------7-------------|-----|-----|------------------------|

-----7----------7-----7--|-----|-----|------------------------|

--------7----------7-----|-----|-----|--7----7-------7--7-----|

--5----------------------|-----|-----|--7----7----0--7--7--0--|

-------------------------|-----|-----|--5----5----0--5--5--0--|

 

 

1.本站遵循行业规范,任何转载的曲谱和教程都会明确标注作者和来源,若有任何问题请联系站长@爱尚吉他app;2.本站的原创曲谱,请转载时务必注明文章作者和来源,不尊重原创的行为我们将追究责任;3.作者投稿可能会经我们编辑修改或补充。


====关于爱尚吉他====

“爱尚吉他23jt.net“是推广吉他的学习平台,专注分享吉他谱、吉他视频教学。

【特色推荐】

微博:新浪微博@爱尚吉他app ,欢迎关注获取吉他谱资源、吉他教学视频。

官网:最好用的吉他学习网站,吉他手必备:http://www.23jt.net


想在手机上、被窝里获取吉他教程、吉他谱和各种意想不到的”福利”吗?

关注“吉他爱好者”微信号:【aigaoguitar】您也可以通过扫描下方二维码快速添加:

欢迎给爱尚吉他投稿猛戳进入投稿>>

相关文章
  • Maroon 5 - Girls like you 吉他谱及弹唱演示

    Maroon 5 - Girls like you 吉他谱及弹唱演示

    2019-03-10 08:41

  • Something Just Like This指弹谱 吉他独奏谱 高清图片谱

    Something Just Like This指弹谱 吉他独奏谱 高清图片谱

    2018-03-18 14:01

  • 逃跑计划《Like A Bird》吉他谱_弹唱六线谱

    逃跑计划《Like A Bird》吉他谱_弹唱六线谱

    2018-02-03 12:09

  • Someone Like You吉他谱 Adele 阿黛尔弹唱谱

    Someone Like You吉他谱 Adele 阿黛尔弹唱谱

    2018-02-02 14:48

爱尚吉他微信小程序
100首热门吉他谱
美女吉他手
木吉他教学入门贴